ISO-10303-21;
HEADER;
/* Generated by software containing ST-Developer
 * from STEP Tools, Inc. (www.steptools.com) 
 */
/* OPTION: using custom schema-name function */

FILE_DESCRIPTION(
/* description */ (''),
/* implementation_level */ '2;1');

FILE_NAME(
/* name */ 'AGWP_7_8.stp',
/* time_stamp */ '2018-02-23T12:04:21+01:00',
/* author */ (''),
/* organization */ (''),
/* preprocessor_version */ 'ST-DEVELOPER v16',
/* originating_system */ 'SIEMENS PLM Software NX 11.0',
/* authorisation */ '');

FILE_SCHEMA (('AUTOMOTIVE_DESIGN { 1 0 10303 214 3 1 1 1 }'));
ENDSEC;

DATA;
#10=PROPERTY_DEFINITION_REPRESENTATION(#14,#12);
#11=PROPERTY_DEFINITION_REPRESENTATION(#15,#13);
#12=REPRESENTATION('',(#16),#543);
#13=REPRESENTATION('',(#17),#543);
#14=PROPERTY_DEFINITION('pmi validation property','',#21);
#15=PROPERTY_DEFINITION('pmi validation property','',#21);
#16=VALUE_REPRESENTATION_ITEM('number of annotations',COUNT_MEASURE(0.));
#17=VALUE_REPRESENTATION_ITEM('number of views',COUNT_MEASURE(0.));
#18=SHAPE_REPRESENTATION_RELATIONSHIP('None',
'relationship between kch3EC42524lm06-None and kch3EC42524lm06-None',#30,
#19);
#19=ADVANCED_BREP_SHAPE_REPRESENTATION('kch3EC42524lm06-None',(#40),#543);
#20=SHAPE_DEFINITION_REPRESENTATION(#21,#30);
#21=PRODUCT_DEFINITION_SHAPE('','',#22);
#22=PRODUCT_DEFINITION(' ','',#24,#23);
#23=PRODUCT_DEFINITION_CONTEXT('part definition',#29,'design');
#24=PRODUCT_DEFINITION_FORMATION_WITH_SPECIFIED_SOURCE(' ',' ',#26,
 .NOT_KNOWN.);
#25=PRODUCT_RELATED_PRODUCT_CATEGORY('part','',(#26));
#26=PRODUCT('kch3EC42524lm06','kch3EC42524lm06',' ',(#27));
#27=PRODUCT_CONTEXT(' ',#29,'mechanical');
#28=APPLICATION_PROTOCOL_DEFINITION('international standard',
'automotive_design',2010,#29);
#29=APPLICATION_CONTEXT(
'core data for automotive mechanical design processes');
#30=SHAPE_REPRESENTATION('kch3EC42524lm06-None',(#334),#543);
#31=PRESENTATION_LAYER_ASSIGNMENT('1','Layer 1',(#40));
#32=STYLED_ITEM('',(#33),#40);
#33=PRESENTATION_STYLE_ASSIGNMENT((#34));
#34=SURFACE_STYLE_USAGE(.BOTH.,#35);
#35=SURFACE_SIDE_STYLE('',(#36));
#36=SURFACE_STYLE_FILL_AREA(#37);
#37=FILL_AREA_STYLE('',(#38));
#38=FILL_AREA_STYLE_COLOUR('',#39);
#39=COLOUR_RGB('Pale Blue',0.537239642938888,0.713725490196078,1.);
#40=MANIFOLD_SOLID_BREP('',#41);
#41=CLOSED_SHELL('',(#78,#79,#80,#81,#82,#83,#84,#85,#86,#87,#88,#89,#90,
#91,#92,#93));
#42=FACE_BOUND('',#124,.T.);
#43=FACE_BOUND('',#125,.T.);
#44=FACE_BOUND('',#128,.T.);
#45=FACE_BOUND('',#129,.T.);
#46=FACE_BOUND('',#130,.T.);
#47=FACE_BOUND('',#131,.T.);
#48=FACE_BOUND('',#132,.T.);
#49=FACE_BOUND('',#133,.T.);
#50=FACE_BOUND('',#134,.T.);
#51=FACE_BOUND('',#135,.T.);
#52=FACE_BOUND('',#136,.T.);
#53=FACE_BOUND('',#137,.T.);
#54=CYLINDRICAL_SURFACE('',#338,12.5);
#55=CYLINDRICAL_SURFACE('',#343,28.00000000001);
#56=CYLINDRICAL_SURFACE('',#347,25.);
#57=CYLINDRICAL_SURFACE('',#351,28.);
#58=CYLINDRICAL_SURFACE('',#355,11.);
#59=CYLINDRICAL_SURFACE('',#358,12.5);
#60=CYLINDRICAL_SURFACE('',#361,25.);
#61=CYLINDRICAL_SURFACE('',#364,11.);
#62=CIRCLE('',#336,12.5);
#63=CIRCLE('',#337,12.5);
#64=CIRCLE('',#341,28.00000000001);
#65=CIRCLE('',#342,28.00000000001);
#66=CIRCLE('',#345,25.);
#67=CIRCLE('',#346,25.);
#68=CIRCLE('',#349,28.);
#69=CIRCLE('',#350,28.);
#70=CIRCLE('',#353,11.);
#71=CIRCLE('',#354,11.);
#72=CIRCLE('',#356,12.5);
#73=CIRCLE('',#357,12.5);
#74=CIRCLE('',#359,25.);
#75=CIRCLE('',#360,25.);
#76=CIRCLE('',#362,11.);
#77=CIRCLE('',#363,11.);
#78=ADVANCED_FACE('',(#102),#94,.T.);
#79=ADVANCED_FACE('',(#103),#54,.F.);
#80=ADVANCED_FACE('',(#104),#95,.T.);
#81=ADVANCED_FACE('',(#105),#96,.T.);
#82=ADVANCED_FACE('',(#106),#55,.T.);
#83=ADVANCED_FACE('',(#107),#97,.T.);
#84=ADVANCED_FACE('',(#108),#56,.T.);
#85=ADVANCED_FACE('',(#109),#98,.T.);
#86=ADVANCED_FACE('',(#110),#57,.T.);
#87=ADVANCED_FACE('',(#111),#99,.T.);
#88=ADVANCED_FACE('',(#42,#43),#58,.F.);
#89=ADVANCED_FACE('',(#112),#59,.F.);
#90=ADVANCED_FACE('',(#113),#60,.T.);
#91=ADVANCED_FACE('',(#44,#45),#61,.F.);
#92=ADVANCED_FACE('',(#46,#47,#48,#49),#100,.F.);
#93=ADVANCED_FACE('',(#50,#51,#52,#53),#101,.T.);
#94=PLANE('',#335);
#95=PLANE('',#339);
#96=PLANE('',#340);
#97=PLANE('',#344);
#98=PLANE('',#348);
#99=PLANE('',#352);
#100=PLANE('',#365);
#101=PLANE('',#366);
#102=FACE_OUTER_BOUND('',#114,.T.);
#103=FACE_OUTER_BOUND('',#115,.T.);
#104=FACE_OUTER_BOUND('',#116,.T.);
#105=FACE_OUTER_BOUND('',#117,.T.);
#106=FACE_OUTER_BOUND('',#118,.T.);
#107=FACE_OUTER_BOUND('',#119,.T.);
#108=FACE_OUTER_BOUND('',#120,.T.);
#109=FACE_OUTER_BOUND('',#121,.T.);
#110=FACE_OUTER_BOUND('',#122,.T.);
#111=FACE_OUTER_BOUND('',#123,.T.);
#112=FACE_OUTER_BOUND('',#126,.T.);
#113=FACE_OUTER_BOUND('',#127,.T.);
#114=EDGE_LOOP('',(#138,#139,#140,#141));
#115=EDGE_LOOP('',(#142,#143,#144,#145));
#116=EDGE_LOOP('',(#146,#147,#148,#149));
#117=EDGE_LOOP('',(#150,#151,#152,#153));
#118=EDGE_LOOP('',(#154,#155,#156,#157));
#119=EDGE_LOOP('',(#158,#159,#160,#161));
#120=EDGE_LOOP('',(#162,#163,#164,#165));
#121=EDGE_LOOP('',(#166,#167,#168,#169));
#122=EDGE_LOOP('',(#170,#171,#172,#173));
#123=EDGE_LOOP('',(#174,#175,#176,#177));
#124=EDGE_LOOP('',(#178));
#125=EDGE_LOOP('',(#179));
#126=EDGE_LOOP('',(#180,#181,#182,#183));
#127=EDGE_LOOP('',(#184,#185,#186,#187));
#128=EDGE_LOOP('',(#188));
#129=EDGE_LOOP('',(#189));
#130=EDGE_LOOP('',(#190,#191,#192,#193,#194,#195,#196,#197));
#131=EDGE_LOOP('',(#198,#199,#200,#201));
#132=EDGE_LOOP('',(#202));
#133=EDGE_LOOP('',(#203));
#134=EDGE_LOOP('',(#204,#205,#206,#207,#208,#209,#210,#211));
#135=EDGE_LOOP('',(#212,#213,#214,#215));
#136=EDGE_LOOP('',(#216));
#137=EDGE_LOOP('',(#217));
#138=ORIENTED_EDGE('',*,*,#246,.F.);
#139=ORIENTED_EDGE('',*,*,#247,.F.);
#140=ORIENTED_EDGE('',*,*,#248,.T.);
#141=ORIENTED_EDGE('',*,*,#249,.T.);
#142=ORIENTED_EDGE('',*,*,#250,.F.);
#143=ORIENTED_EDGE('',*,*,#249,.F.);
#144=ORIENTED_EDGE('',*,*,#251,.T.);
#145=ORIENTED_EDGE('',*,*,#252,.T.);
#146=ORIENTED_EDGE('',*,*,#253,.F.);
#147=ORIENTED_EDGE('',*,*,#252,.F.);
#148=ORIENTED_EDGE('',*,*,#254,.T.);
#149=ORIENTED_EDGE('',*,*,#255,.T.);
#150=ORIENTED_EDGE('',*,*,#256,.F.);
#151=ORIENTED_EDGE('',*,*,#257,.F.);
#152=ORIENTED_EDGE('',*,*,#258,.T.);
#153=ORIENTED_EDGE('',*,*,#259,.T.);
#154=ORIENTED_EDGE('',*,*,#260,.F.);
#155=ORIENTED_EDGE('',*,*,#259,.F.);
#156=ORIENTED_EDGE('',*,*,#261,.T.);
#157=ORIENTED_EDGE('',*,*,#262,.T.);
#158=ORIENTED_EDGE('',*,*,#263,.F.);
#159=ORIENTED_EDGE('',*,*,#262,.F.);
#160=ORIENTED_EDGE('',*,*,#264,.T.);
#161=ORIENTED_EDGE('',*,*,#265,.T.);
#162=ORIENTED_EDGE('',*,*,#266,.F.);
#163=ORIENTED_EDGE('',*,*,#265,.F.);
#164=ORIENTED_EDGE('',*,*,#267,.T.);
#165=ORIENTED_EDGE('',*,*,#268,.T.);
#166=ORIENTED_EDGE('',*,*,#269,.F.);
#167=ORIENTED_EDGE('',*,*,#268,.F.);
#168=ORIENTED_EDGE('',*,*,#270,.T.);
#169=ORIENTED_EDGE('',*,*,#271,.T.);
#170=ORIENTED_EDGE('',*,*,#272,.F.);
#171=ORIENTED_EDGE('',*,*,#271,.F.);
#172=ORIENTED_EDGE('',*,*,#273,.T.);
#173=ORIENTED_EDGE('',*,*,#274,.T.);
#174=ORIENTED_EDGE('',*,*,#275,.F.);
#175=ORIENTED_EDGE('',*,*,#274,.F.);
#176=ORIENTED_EDGE('',*,*,#276,.T.);
#177=ORIENTED_EDGE('',*,*,#277,.T.);
#178=ORIENTED_EDGE('',*,*,#278,.T.);
#179=ORIENTED_EDGE('',*,*,#279,.F.);
#180=ORIENTED_EDGE('',*,*,#280,.F.);
#181=ORIENTED_EDGE('',*,*,#255,.F.);
#182=ORIENTED_EDGE('',*,*,#281,.T.);
#183=ORIENTED_EDGE('',*,*,#247,.T.);
#184=ORIENTED_EDGE('',*,*,#282,.F.);
#185=ORIENTED_EDGE('',*,*,#277,.F.);
#186=ORIENTED_EDGE('',*,*,#283,.T.);
#187=ORIENTED_EDGE('',*,*,#257,.T.);
#188=ORIENTED_EDGE('',*,*,#284,.T.);
#189=ORIENTED_EDGE('',*,*,#285,.F.);
#190=ORIENTED_EDGE('',*,*,#258,.F.);
#191=ORIENTED_EDGE('',*,*,#283,.F.);
#192=ORIENTED_EDGE('',*,*,#276,.F.);
#193=ORIENTED_EDGE('',*,*,#273,.F.);
#194=ORIENTED_EDGE('',*,*,#270,.F.);
#195=ORIENTED_EDGE('',*,*,#267,.F.);
#196=ORIENTED_EDGE('',*,*,#264,.F.);
#197=ORIENTED_EDGE('',*,*,#261,.F.);
#198=ORIENTED_EDGE('',*,*,#248,.F.);
#199=ORIENTED_EDGE('',*,*,#281,.F.);
#200=ORIENTED_EDGE('',*,*,#254,.F.);
#201=ORIENTED_EDGE('',*,*,#251,.F.);
#202=ORIENTED_EDGE('',*,*,#278,.F.);
#203=ORIENTED_EDGE('',*,*,#284,.F.);
#204=ORIENTED_EDGE('',*,*,#256,.T.);
#205=ORIENTED_EDGE('',*,*,#260,.T.);
#206=ORIENTED_EDGE('',*,*,#263,.T.);
#207=ORIENTED_EDGE('',*,*,#266,.T.);
#208=ORIENTED_EDGE('',*,*,#269,.T.);
#209=ORIENTED_EDGE('',*,*,#272,.T.);
#210=ORIENTED_EDGE('',*,*,#275,.T.);
#211=ORIENTED_EDGE('',*,*,#282,.T.);
#212=ORIENTED_EDGE('',*,*,#246,.T.);
#213=ORIENTED_EDGE('',*,*,#250,.T.);
#214=ORIENTED_EDGE('',*,*,#253,.T.);
#215=ORIENTED_EDGE('',*,*,#280,.T.);
#216=ORIENTED_EDGE('',*,*,#279,.T.);
#217=ORIENTED_EDGE('',*,*,#285,.T.);
#218=VERTEX_POINT('',#459);
#219=VERTEX_POINT('',#460);
#220=VERTEX_POINT('',#462);
#221=VERTEX_POINT('',#464);
#222=VERTEX_POINT('',#468);
#223=VERTEX_POINT('',#470);
#224=VERTEX_POINT('',#474);
#225=VERTEX_POINT('',#476);
#226=VERTEX_POINT('',#480);
#227=VERTEX_POINT('',#481);
#228=VERTEX_POINT('',#483);
#229=VERTEX_POINT('',#485);
#230=VERTEX_POINT('',#489);
#231=VERTEX_POINT('',#491);
#232=VERTEX_POINT('',#495);
#233=VERTEX_POINT('',#497);
#234=VERTEX_POINT('',#501);
#235=VERTEX_POINT('',#503);
#236=VERTEX_POINT('',#507);
#237=VERTEX_POINT('',#509);
#238=VERTEX_POINT('',#513);
#239=VERTEX_POINT('',#515);
#240=VERTEX_POINT('',#519);
#241=VERTEX_POINT('',#521);
#242=VERTEX_POINT('',#525);
#243=VERTEX_POINT('',#527);
#244=VERTEX_POINT('',#536);
#245=VERTEX_POINT('',#538);
#246=EDGE_CURVE('',#218,#219,#286,.T.);
#247=EDGE_CURVE('',#220,#218,#287,.T.);
#248=EDGE_CURVE('',#220,#221,#288,.T.);
#249=EDGE_CURVE('',#221,#219,#289,.T.);
#250=EDGE_CURVE('',#219,#222,#62,.T.);
#251=EDGE_CURVE('',#221,#223,#63,.T.);
#252=EDGE_CURVE('',#223,#222,#290,.T.);
#253=EDGE_CURVE('',#222,#224,#291,.T.);
#254=EDGE_CURVE('',#223,#225,#292,.T.);
#255=EDGE_CURVE('',#225,#224,#293,.T.);
#256=EDGE_CURVE('',#226,#227,#294,.T.);
#257=EDGE_CURVE('',#228,#226,#295,.T.);
#258=EDGE_CURVE('',#228,#229,#296,.T.);
#259=EDGE_CURVE('',#229,#227,#297,.T.);
#260=EDGE_CURVE('',#227,#230,#64,.T.);
#261=EDGE_CURVE('',#229,#231,#65,.T.);
#262=EDGE_CURVE('',#231,#230,#298,.T.);
#263=EDGE_CURVE('',#230,#232,#299,.T.);
#264=EDGE_CURVE('',#231,#233,#300,.T.);
#265=EDGE_CURVE('',#233,#232,#301,.T.);
#266=EDGE_CURVE('',#232,#234,#66,.T.);
#267=EDGE_CURVE('',#233,#235,#67,.T.);
#268=EDGE_CURVE('',#235,#234,#302,.T.);
#269=EDGE_CURVE('',#234,#236,#303,.T.);
#270=EDGE_CURVE('',#235,#237,#304,.T.);
#271=EDGE_CURVE('',#237,#236,#305,.T.);
#272=EDGE_CURVE('',#236,#238,#68,.T.);
#273=EDGE_CURVE('',#237,#239,#69,.T.);
#274=EDGE_CURVE('',#239,#238,#306,.T.);
#275=EDGE_CURVE('',#238,#240,#307,.T.);
#276=EDGE_CURVE('',#239,#241,#308,.T.);
#277=EDGE_CURVE('',#241,#240,#309,.T.);
#278=EDGE_CURVE('',#242,#242,#70,.T.);
#279=EDGE_CURVE('',#243,#243,#71,.T.);
#280=EDGE_CURVE('',#224,#218,#72,.T.);
#281=EDGE_CURVE('',#225,#220,#73,.T.);
#282=EDGE_CURVE('',#240,#226,#74,.T.);
#283=EDGE_CURVE('',#241,#228,#75,.T.);
#284=EDGE_CURVE('',#244,#244,#76,.T.);
#285=EDGE_CURVE('',#245,#245,#77,.T.);
#286=LINE('',#458,#310);
#287=LINE('',#461,#311);
#288=LINE('',#463,#312);
#289=LINE('',#465,#313);
#290=LINE('',#471,#314);
#291=LINE('',#473,#315);
#292=LINE('',#475,#316);
#293=LINE('',#477,#317);
#294=LINE('',#479,#318);
#295=LINE('',#482,#319);
#296=LINE('',#484,#320);
#297=LINE('',#486,#321);
#298=LINE('',#492,#322);
#299=LINE('',#494,#323);
#300=LINE('',#496,#324);
#301=LINE('',#498,#325);
#302=LINE('',#504,#326);
#303=LINE('',#506,#327);
#304=LINE('',#508,#328);
#305=LINE('',#510,#329);
#306=LINE('',#516,#330);
#307=LINE('',#518,#331);
#308=LINE('',#520,#332);
#309=LINE('',#522,#333);
#310=VECTOR('',#369,1.);
#311=VECTOR('',#370,1.);
#312=VECTOR('',#371,1.);
#313=VECTOR('',#372,1.);
#314=VECTOR('',#379,1.);
#315=VECTOR('',#382,1.);
#316=VECTOR('',#383,1.);
#317=VECTOR('',#384,1.);
#318=VECTOR('',#387,1.);
#319=VECTOR('',#388,1.);
#320=VECTOR('',#389,1.);
#321=VECTOR('',#390,1.);
#322=VECTOR('',#397,1.);
#323=VECTOR('',#400,1.);
#324=VECTOR('',#401,1.);
#325=VECTOR('',#402,1.);
#326=VECTOR('',#409,1.);
#327=VECTOR('',#412,1.);
#328=VECTOR('',#413,1.);
#329=VECTOR('',#414,1.);
#330=VECTOR('',#421,1.);
#331=VECTOR('',#424,1.);
#332=VECTOR('',#425,1.);
#333=VECTOR('',#426,1.);
#334=AXIS2_PLACEMENT_3D('',#457,#367,#368);
#335=AXIS2_PLACEMENT_3D('',#466,#373,#374);
#336=AXIS2_PLACEMENT_3D('',#467,#375,#376);
#337=AXIS2_PLACEMENT_3D('',#469,#377,#378);
#338=AXIS2_PLACEMENT_3D('',#472,#380,#381);
#339=AXIS2_PLACEMENT_3D('',#478,#385,#386);
#340=AXIS2_PLACEMENT_3D('',#487,#391,#392);
#341=AXIS2_PLACEMENT_3D('',#488,#393,#394);
#342=AXIS2_PLACEMENT_3D('',#490,#395,#396);
#343=AXIS2_PLACEMENT_3D('',#493,#398,#399);
#344=AXIS2_PLACEMENT_3D('',#499,#403,#404);
#345=AXIS2_PLACEMENT_3D('',#500,#405,#406);
#346=AXIS2_PLACEMENT_3D('',#502,#407,#408);
#347=AXIS2_PLACEMENT_3D('',#505,#410,#411);
#348=AXIS2_PLACEMENT_3D('',#511,#415,#416);
#349=AXIS2_PLACEMENT_3D('',#512,#417,#418);
#350=AXIS2_PLACEMENT_3D('',#514,#419,#420);
#351=AXIS2_PLACEMENT_3D('',#517,#422,#423);
#352=AXIS2_PLACEMENT_3D('',#523,#427,#428);
#353=AXIS2_PLACEMENT_3D('',#524,#429,#430);
#354=AXIS2_PLACEMENT_3D('',#526,#431,#432);
#355=AXIS2_PLACEMENT_3D('',#528,#433,#434);
#356=AXIS2_PLACEMENT_3D('',#529,#435,#436);
#357=AXIS2_PLACEMENT_3D('',#530,#437,#438);
#358=AXIS2_PLACEMENT_3D('',#531,#439,#440);
#359=AXIS2_PLACEMENT_3D('',#532,#441,#442);
#360=AXIS2_PLACEMENT_3D('',#533,#443,#444);
#361=AXIS2_PLACEMENT_3D('',#534,#445,#446);
#362=AXIS2_PLACEMENT_3D('',#535,#447,#448);
#363=AXIS2_PLACEMENT_3D('',#537,#449,#450);
#364=AXIS2_PLACEMENT_3D('',#539,#451,#452);
#365=AXIS2_PLACEMENT_3D('',#540,#453,#454);
#366=AXIS2_PLACEMENT_3D('',#541,#455,#456);
#367=DIRECTION('',(0.,0.,1.));
#368=DIRECTION('',(1.,0.,0.));
#369=DIRECTION('',(0.,3.1540426835942E-17,-1.));
#370=DIRECTION('',(-1.,0.,0.));
#371=DIRECTION('',(0.,3.1540426835942E-17,-1.));
#372=DIRECTION('',(-1.,0.,0.));
#373=DIRECTION('',(0.,1.,3.1540426835942E-17));
#374=DIRECTION('',(0.,-3.12250225675825E-17,1.));
#375=DIRECTION('',(1.,0.,0.));
#376=DIRECTION('',(0.,1.,0.));
#377=DIRECTION('',(1.,0.,0.));
#378=DIRECTION('',(0.,1.,0.));
#379=DIRECTION('',(-1.,0.,0.));
#380=DIRECTION('',(-1.,0.,0.));
#381=DIRECTION('',(0.,0.,1.));
#382=DIRECTION('',(0.,3.1540426835942E-17,1.));
#383=DIRECTION('',(0.,3.1540426835942E-17,1.));
#384=DIRECTION('',(-1.,0.,0.));
#385=DIRECTION('',(0.,-1.,3.1540426835942E-17));
#386=DIRECTION('',(0.,-3.12250225675825E-17,-1.));
#387=DIRECTION('',(0.,0.959999999999998,0.280000000000007));
#388=DIRECTION('',(-1.,0.,0.));
#389=DIRECTION('',(0.,0.959999999999998,0.280000000000007));
#390=DIRECTION('',(-1.,0.,0.));
#391=DIRECTION('',(0.,-0.280000000000007,0.959999999999998));
#392=DIRECTION('',(0.,-0.959999999999998,-0.280000000000007));
#393=DIRECTION('',(-1.,0.,0.));
#394=DIRECTION('',(0.,1.,0.));
#395=DIRECTION('',(-1.,0.,0.));
#396=DIRECTION('',(0.,1.,0.));
#397=DIRECTION('',(-1.,0.,0.));
#398=DIRECTION('',(-1.,0.,0.));
#399=DIRECTION('',(0.,0.,1.));
#400=DIRECTION('',(0.,0.959999999999998,-0.280000000000007));
#401=DIRECTION('',(0.,0.959999999999998,-0.280000000000007));
#402=DIRECTION('',(-1.,0.,0.));
#403=DIRECTION('',(0.,0.280000000000007,0.959999999999998));
#404=DIRECTION('',(0.,-0.959999999999998,0.280000000000007));
#405=DIRECTION('',(-1.,0.,0.));
#406=DIRECTION('',(0.,1.,6.12323399573677E-17));
#407=DIRECTION('',(-1.,0.,0.));
#408=DIRECTION('',(0.,1.,6.12323399573677E-17));
#409=DIRECTION('',(-1.,0.,0.));
#410=DIRECTION('',(-1.,0.,0.));
#411=DIRECTION('',(0.,0.,1.));
#412=DIRECTION('',(0.,-0.96,-0.28));
#413=DIRECTION('',(0.,-0.96,-0.28));
#414=DIRECTION('',(-1.,0.,0.));
#415=DIRECTION('',(0.,0.28,-0.96));
#416=DIRECTION('',(0.,0.96,0.28));
#417=DIRECTION('',(-1.,0.,0.));
#418=DIRECTION('',(0.,1.,0.));
#419=DIRECTION('',(-1.,0.,0.));
#420=DIRECTION('',(0.,1.,0.));
#421=DIRECTION('',(-1.,0.,0.));
#422=DIRECTION('',(-1.,0.,0.));
#423=DIRECTION('',(0.,0.,1.));
#424=DIRECTION('',(0.,-0.96,0.28));
#425=DIRECTION('',(0.,-0.96,0.28));
#426=DIRECTION('',(-1.,0.,0.));
#427=DIRECTION('',(0.,-0.28,-0.96));
#428=DIRECTION('',(0.,0.96,-0.28));
#429=DIRECTION('',(1.,0.,0.));
#430=DIRECTION('',(0.,1.,-6.12323399573677E-17));
#431=DIRECTION('',(1.,0.,0.));
#432=DIRECTION('',(0.,1.,-6.12323399573677E-17));
#433=DIRECTION('',(-1.,0.,0.));
#434=DIRECTION('',(0.,0.,1.));
#435=DIRECTION('',(1.,0.,0.));
#436=DIRECTION('',(0.,1.,0.));
#437=DIRECTION('',(1.,0.,0.));
#438=DIRECTION('',(0.,1.,0.));
#439=DIRECTION('',(-1.,0.,0.));
#440=DIRECTION('',(0.,0.,1.));
#441=DIRECTION('',(-1.,0.,0.));
#442=DIRECTION('',(0.,1.,6.12323399573677E-17));
#443=DIRECTION('',(-1.,0.,0.));
#444=DIRECTION('',(0.,1.,6.12323399573677E-17));
#445=DIRECTION('',(-1.,0.,0.));
#446=DIRECTION('',(0.,0.,1.));
#447=DIRECTION('',(1.,0.,0.));
#448=DIRECTION('',(0.,1.,-6.12323399573677E-17));
#449=DIRECTION('',(1.,0.,0.));
#450=DIRECTION('',(0.,1.,-6.12323399573677E-17));
#451=DIRECTION('',(-1.,0.,0.));
#452=DIRECTION('',(0.,0.,1.));
#453=DIRECTION('',(-1.,0.,0.));
#454=DIRECTION('',(0.,0.,1.));
#455=DIRECTION('',(-1.,0.,0.));
#456=DIRECTION('',(0.,0.,1.));
#457=CARTESIAN_POINT('',(0.,0.,0.));
#458=CARTESIAN_POINT('',(0.,-12.5,27.4999999999904));
#459=CARTESIAN_POINT('',(0.,-12.5,27.4999999999904));
#460=CARTESIAN_POINT('',(0.,-12.5,-27.5000000000096));
#461=CARTESIAN_POINT('',(15.,-12.5,27.4999999999904));
#462=CARTESIAN_POINT('',(15.,-12.5,27.4999999999904));
#463=CARTESIAN_POINT('',(15.,-12.5,27.4999999999904));
#464=CARTESIAN_POINT('',(15.,-12.5,-27.5000000000096));
#465=CARTESIAN_POINT('',(15.,-12.5,-27.5000000000096));
#466=CARTESIAN_POINT('',(15.,-12.5,27.4999999999904));
#467=CARTESIAN_POINT('',(0.,0.,-27.5));
#468=CARTESIAN_POINT('',(0.,12.5,-27.5));
#469=CARTESIAN_POINT('',(15.,0.,-27.5));
#470=CARTESIAN_POINT('',(15.,12.5,-27.5));
#471=CARTESIAN_POINT('',(15.,12.5,-27.5));
#472=CARTESIAN_POINT('',(15.,0.,-27.5));
#473=CARTESIAN_POINT('',(0.,12.5,-27.5000000000096));
#474=CARTESIAN_POINT('',(0.,12.5,27.4999999999904));
#475=CARTESIAN_POINT('',(15.,12.5,-27.5000000000096));
#476=CARTESIAN_POINT('',(15.,12.5,27.4999999999904));
#477=CARTESIAN_POINT('',(15.,12.5,27.4999999999904));
#478=CARTESIAN_POINT('',(15.,12.5,-27.5000000000096));
#479=CARTESIAN_POINT('',(0.,-112.,24.));
#480=CARTESIAN_POINT('',(0.,-112.,24.));
#481=CARTESIAN_POINT('',(0.,-7.84000000000301,54.38));
#482=CARTESIAN_POINT('',(15.,-112.,24.));
#483=CARTESIAN_POINT('',(15.,-112.,24.));
#484=CARTESIAN_POINT('',(15.,-112.,24.));
#485=CARTESIAN_POINT('',(15.,-7.84000000000301,54.38));
#486=CARTESIAN_POINT('',(15.,-7.84000000000301,54.38));
#487=CARTESIAN_POINT('',(15.,-112.,24.));
#488=CARTESIAN_POINT('',(0.,0.,27.4999999999904));
#489=CARTESIAN_POINT('',(0.,7.840000000003,54.38));
#490=CARTESIAN_POINT('',(15.,0.,27.4999999999904));
#491=CARTESIAN_POINT('',(15.,7.840000000003,54.38));
#492=CARTESIAN_POINT('',(15.,7.840000000003,54.38));
#493=CARTESIAN_POINT('',(15.,0.,27.4999999999904));
#494=CARTESIAN_POINT('',(0.,7.840000000003,54.38));
#495=CARTESIAN_POINT('',(0.,112.,23.9999999999999));
#496=CARTESIAN_POINT('',(15.,7.840000000003,54.38));
#497=CARTESIAN_POINT('',(15.,112.,23.9999999999999));
#498=CARTESIAN_POINT('',(15.,112.,23.9999999999999));
#499=CARTESIAN_POINT('',(15.,7.840000000003,54.38));
#500=CARTESIAN_POINT('',(0.,105.,0.));
#501=CARTESIAN_POINT('',(0.,112.,-24.));
#502=CARTESIAN_POINT('',(15.,105.,0.));
#503=CARTESIAN_POINT('',(15.,112.,-24.));
#504=CARTESIAN_POINT('',(15.,112.,-24.));
#505=CARTESIAN_POINT('',(15.,105.,0.));
#506=CARTESIAN_POINT('',(0.,112.,-24.));
#507=CARTESIAN_POINT('',(0.,7.84000000000001,-54.38));
#508=CARTESIAN_POINT('',(15.,112.,-24.));
#509=CARTESIAN_POINT('',(15.,7.84000000000001,-54.38));
#510=CARTESIAN_POINT('',(15.,7.84000000000001,-54.38));
#511=CARTESIAN_POINT('',(15.,112.,-24.));
#512=CARTESIAN_POINT('',(0.,0.,-27.5));
#513=CARTESIAN_POINT('',(0.,-7.84,-54.38));
#514=CARTESIAN_POINT('',(15.,0.,-27.5));
#515=CARTESIAN_POINT('',(15.,-7.84,-54.38));
#516=CARTESIAN_POINT('',(15.,-7.84,-54.38));
#517=CARTESIAN_POINT('',(15.,0.,-27.5));
#518=CARTESIAN_POINT('',(0.,-7.84,-54.38));
#519=CARTESIAN_POINT('',(0.,-112.,-24.));
#520=CARTESIAN_POINT('',(15.,-7.84,-54.38));
#521=CARTESIAN_POINT('',(15.,-112.,-24.));
#522=CARTESIAN_POINT('',(15.,-112.,-24.));
#523=CARTESIAN_POINT('',(15.,-7.84,-54.38));
#524=CARTESIAN_POINT('',(15.,105.,0.));
#525=CARTESIAN_POINT('',(15.,116.,-6.73555739531044E-16));
#526=CARTESIAN_POINT('',(0.,105.,0.));
#527=CARTESIAN_POINT('',(0.,116.,-6.73555739531044E-16));
#528=CARTESIAN_POINT('',(15.,105.,0.));
#529=CARTESIAN_POINT('',(0.,0.,27.4999999999904));
#530=CARTESIAN_POINT('',(15.,0.,27.4999999999904));
#531=CARTESIAN_POINT('',(15.,0.,27.4999999999904));
#532=CARTESIAN_POINT('',(0.,-105.,0.));
#533=CARTESIAN_POINT('',(15.,-105.,0.));
#534=CARTESIAN_POINT('',(15.,-105.,0.));
#535=CARTESIAN_POINT('',(15.,-105.,0.));
#536=CARTESIAN_POINT('',(15.,-94.,-6.73555739531044E-16));
#537=CARTESIAN_POINT('',(0.,-105.,0.));
#538=CARTESIAN_POINT('',(0.,-94.,-6.73555739531044E-16));
#539=CARTESIAN_POINT('',(15.,-105.,0.));
#540=CARTESIAN_POINT('',(15.,0.,27.4999999999904));
#541=CARTESIAN_POINT('',(0.,0.,27.4999999999904));
#542=MECHANICAL_DESIGN_GEOMETRIC_PRESENTATION_REPRESENTATION('',(#32),#543);
#543=(
GEOMETRIC_REPRESENTATION_CONTEXT(3)
GLOBAL_UNCERTAINTY_ASSIGNED_CONTEXT((#544))
GLOBAL_UNIT_ASSIGNED_CONTEXT((#550,#546,#545))
REPRESENTATION_CONTEXT('AGWP_7_8','TOP_LEVEL_ASSEMBLY_PART')
);
#544=UNCERTAINTY_MEASURE_WITH_UNIT(LENGTH_MEASURE(2.E-5),#550,
'DISTANCE_ACCURACY_VALUE','Maximum Tolerance applied to model');
#545=(
NAMED_UNIT(*)
SI_UNIT($,.STERADIAN.)
SOLID_ANGLE_UNIT()
);
#546=(
CONVERSION_BASED_UNIT('DEGREE',#548)
NAMED_UNIT(#547)
PLANE_ANGLE_UNIT()
);
#547=DIMENSIONAL_EXPONENTS(0.,0.,0.,0.,0.,0.,0.);
#548=PLANE_ANGLE_MEASURE_WITH_UNIT(PLANE_ANGLE_MEASURE(0.0174532925),#549);
#549=(
NAMED_UNIT(*)
PLANE_ANGLE_UNIT()
SI_UNIT($,.RADIAN.)
);
#550=(
LENGTH_UNIT()
NAMED_UNIT(*)
SI_UNIT(.MILLI.,.METRE.)
);
ENDSEC;
END-ISO-10303-21;
